ISO-10303-21;
HEADER;
FILE_DESCRIPTION (( 'STEP AP203' ),
    '1' );
FILE_NAME ('BK7-NPBSC-12.7-650-900.STEP',
    '2020-12-22T02:09:17',
    ( '' ),
    ( '' ),
    'SwSTEP 2.0',
    'SolidWorks 2020',
    '' );
FILE_SCHEMA (( 'CONFIG_CONTROL_DESIGN' ));
ENDSEC;

DATA;
#1 = DIRECTION ( 'NONE',  ( -0.7071067811865475727, -0.7071067811865475727, 0.000000000000000000 ) ) ;
#2 = AXIS2_PLACEMENT_3D ( 'NONE', #201, #72, #300 ) ;
#3 = CC_DESIGN_DATE_AND_TIME_ASSIGNMENT ( #253, #14, ( #220 ) ) ;
#4 = ADVANCED_FACE ( 'NONE', ( #314 ), #209, .F. ) ;
#5 = DIRECTION ( 'NONE',  ( -0.7071067811865475727, -0.7071067811865475727, 0.000000000000000000 ) ) ;
#6 = ORIENTED_EDGE ( 'NONE', *, *, #266, .T. ) ;
#7 = CARTESIAN_POINT ( 'NONE',  ( 6.349999999999996980, 6.349999999999996980, 6.349999999999999645 ) ) ;
#8 = APPLICATION_CONTEXT ( 'configuration controlled 3d designs of mechanical parts and assemblies' ) ;
#9 = DIRECTION ( 'NONE',  ( 0.000000000000000000, 1.000000000000000000, 0.000000000000000000 ) ) ;
#10 = APPLICATION_PROTOCOL_DEFINITION ( 'international standard', 'config_control_design', 1994, #8 ) ;
#11 = VECTOR ( 'NONE', #171, 1000.000000000000000 ) ;
#12 = DATE_AND_TIME ( #18, #166 ) ;
#13 = ORIENTED_EDGE ( 'NONE', *, *, #103, .F. ) ;
#14 = DATE_TIME_ROLE ( 'classification_date' ) ;
#15 = CARTESIAN_POINT ( 'NONE',  ( 6.349999999999996980, 6.349999999999996980, -6.349999999999999645 ) ) ;
#16 = VECTOR ( 'NONE', #1, 999.9999999999998863 ) ;
#17 = ORIENTED_EDGE ( 'NONE', *, *, #101, .F. ) ;
#18 = CALENDAR_DATE ( 2020, 22, 12 ) ;
#19 = EDGE_LOOP ( 'NONE', ( #183, #257, #17, #6 ) ) ;
#20 = PERSON_AND_ORGANIZATION ( #272, #99 ) ;
#21 = DIRECTION ( 'NONE',  ( -0.7071067811865475727, 0.7071067811865475727, 0.000000000000000000 ) ) ;
#22 = LINE ( 'NONE', #294, #57 ) ;
#23 = CARTESIAN_POINT ( 'NONE',  ( 0.000000000000000000, 0.000000000000000000, -6.349999999999999645 ) ) ;
#24 = CARTESIAN_POINT ( 'NONE',  ( 6.349999999999998757, 6.349999999999998757, 6.349999999999999645 ) ) ;
#25 = DIRECTION ( 'NONE',  ( -0.000000000000000000, 0.000000000000000000, 1.000000000000000000 ) ) ;
#26 = ADVANCED_FACE ( 'NONE', ( #239 ), #255, .T. ) ;
#27 = ORIENTED_EDGE ( 'NONE', *, *, #80, .F. ) ;
#28 = APPROVAL ( #135, 'UNSPECIFIED' ) ;
#29 = VECTOR ( 'NONE', #69, 1000.000000000000000 ) ;
#30 =( NAMED_UNIT ( * ) SI_UNIT ( $, .STERADIAN. ) SOLID_ANGLE_UNIT ( ) );
#31 = ORIENTED_EDGE ( 'NONE', *, *, #80, .T. ) ;
#32 = PLANE ( 'NONE',  #267 ) ;
#33 = ORIENTED_EDGE ( 'NONE', *, *, #59, .F. ) ;
#34 = DIRECTION ( 'NONE',  ( -0.000000000000000000, 0.000000000000000000, 1.000000000000000000 ) ) ;
#35 = APPROVAL_DATE_TIME ( #12, #28 ) ;
#36 = AXIS2_PLACEMENT_3D ( 'NONE', #168, #34, #235 ) ;
#37 = ORIENTED_EDGE ( 'NONE', *, *, #165, .T. ) ;
#38 = ORIENTED_EDGE ( 'NONE', *, *, #155, .F. ) ;
#39 = DATE_AND_TIME ( #283, #113 ) ;
#40 = DIRECTION ( 'NONE',  ( 1.000000000000000000, 0.000000000000000000, 0.000000000000000000 ) ) ;
#41 = FACE_OUTER_BOUND ( 'NONE', #85, .T. ) ;
#42 = PLANE ( 'NONE',  #142 ) ;
#43 = PLANE ( 'NONE',  #104 ) ;
#44 = CC_DESIGN_PERSON_AND_ORGANIZATION_ASSIGNMENT ( #52, #60, ( #158 ) ) ;
#45 = PLANE ( 'NONE',  #195 ) ;
#46 = DESIGN_CONTEXT ( 'detailed design', #119, 'design' ) ;
#47 = DIRECTION ( 'NONE',  ( -0.000000000000000000, -0.000000000000000000, -1.000000000000000000 ) ) ;
#48 = VERTEX_POINT ( 'NONE', #15 ) ;
#49 = CARTESIAN_POINT ( 'NONE',  ( 6.349999999999998757, 6.349999999999998757, 6.349999999999999645 ) ) ;
#50 = EDGE_CURVE ( 'NONE', #187, #67, #110, .T. ) ;
#51 = DIRECTION ( 'NONE',  ( 0.000000000000000000, 0.000000000000000000, 1.000000000000000000 ) ) ;
#52 = PERSON_AND_ORGANIZATION ( #272, #99 ) ;
#53 = VERTEX_POINT ( 'NONE', #61 ) ;
#54 = ORIENTED_EDGE ( 'NONE', *, *, #273, .T. ) ;
#55 = APPROVAL_ROLE ( '' ) ;
#56 = CALENDAR_DATE ( 2020, 22, 12 ) ;
#57 = VECTOR ( 'NONE', #65, 1000.000000000000114 ) ;
#58 = DIRECTION ( 'NONE',  ( 0.000000000000000000, 0.000000000000000000, 1.000000000000000000 ) ) ;
#59 = EDGE_CURVE ( 'NONE', #48, #164, #241, .T. ) ;
#60 = PERSON_AND_ORGANIZATION_ROLE ( 'creator' ) ;
#61 = CARTESIAN_POINT ( 'NONE',  ( -6.350000000000002309, 6.350000000000001421, 6.349999999999999645 ) ) ;
#62 = CC_DESIGN_PERSON_AND_ORGANIZATION_ASSIGNMENT ( #210, #309, ( #307 ) ) ;
#63 = FACE_OUTER_BOUND ( 'NONE', #200, .T. ) ;
#64 = DIRECTION ( 'NONE',  ( -2.220446049250312588E-16, 1.000000000000000000, 0.000000000000000000 ) ) ;
#65 = DIRECTION ( 'NONE',  ( -0.7071067811865474617, -0.7071067811865474617, 0.000000000000000000 ) ) ;
#66 = DIRECTION ( 'NONE',  ( 0.000000000000000000, 0.000000000000000000, -1.000000000000000000 ) ) ;
#67 = VERTEX_POINT ( 'NONE', #270 ) ;
#68 = EDGE_CURVE ( 'NONE', #154, #189, #242, .T. ) ;
#69 = DIRECTION ( 'NONE',  ( -0.000000000000000000, -0.000000000000000000, -1.000000000000000000 ) ) ;
#70 = ORIENTED_EDGE ( 'NONE', *, *, #269, .T. ) ;
#71 = LINE ( 'NONE', #151, #160 ) ;
#72 = DIRECTION ( 'NONE',  ( 0.7071067811865475727, -0.7071067811865475727, 0.000000000000000000 ) ) ;
#73 = DIRECTION ( 'NONE',  ( 1.000000000000000000, -2.903408047666378392E-16, 0.000000000000000000 ) ) ;
#74 = VERTEX_POINT ( 'NONE', #123 ) ;
#75 = ADVANCED_FACE ( 'NONE', ( #145 ), #271, .T. ) ;
#76 = PERSON_AND_ORGANIZATION_ROLE ( 'classification_officer' ) ;
#77 = ORIENTED_EDGE ( 'NONE', *, *, #50, .F. ) ;
#78 = ADVANCED_BREP_SHAPE_REPRESENTATION ( 'BK7-NPBSC-12.7-650-900', ( #180, #286, #292 ), #202 ) ;
#79 = APPROVAL_ROLE ( '' ) ;
#80 = EDGE_CURVE ( 'NONE', #74, #164, #90, .T. ) ;
#81 = VERTEX_POINT ( 'NONE', #89 ) ;
#82 = COORDINATED_UNIVERSAL_TIME_OFFSET ( 8, 0, .AHEAD. ) ;
#83 = ORIENTED_EDGE ( 'NONE', *, *, #68, .T. ) ;
#84 = APPLICATION_PROTOCOL_DEFINITION ( 'international standard', 'config_control_design', 1994, #119 ) ;
#85 = EDGE_LOOP ( 'NONE', ( #38, #77, #137 ) ) ;
#86 = DATE_TIME_ROLE ( 'creation_date' ) ;
#87 = CC_DESIGN_APPROVAL ( #198, ( #220 ) ) ;
#88 = CARTESIAN_POINT ( 'NONE',  ( 6.349999999999996980, 6.349999999999996980, -6.349999999999999645 ) ) ;
#89 = CARTESIAN_POINT ( 'NONE',  ( 6.349999999999996980, 6.349999999999996980, 6.349999999999999645 ) ) ;
#90 = LINE ( 'NONE', #91, #167 ) ;
#91 = CARTESIAN_POINT ( 'NONE',  ( -6.349999999999998757, -6.349999999999997868, 6.349999999999999645 ) ) ;
#92 = AXIS2_PLACEMENT_3D ( 'NONE', #173, #317, #130 ) ;
#93 = DIRECTION ( 'NONE',  ( -6.829619984160658046E-17, 1.000000000000000000, -0.000000000000000000 ) ) ;
#94 = ADVANCED_FACE ( 'NONE', ( #265 ), #219, .F. ) ;
#95 = DIRECTION ( 'NONE',  ( 1.000000000000000000, 0.000000000000000000, 0.000000000000000000 ) ) ;
#96 = CLOSED_SHELL ( 'NONE', ( #149, #4, #94, #75, #115 ) ) ;
#97 = EDGE_CURVE ( 'NONE', #140, #278, #319, .T. ) ;
#98 = FACE_OUTER_BOUND ( 'NONE', #19, .T. ) ;
#99 = ORGANIZATION ( 'UNSPECIFIED', 'UNSPECIFIED', '' ) ;
#100 = CARTESIAN_POINT ( 'NONE',  ( -6.349999999999999645, -6.350000000000000533, -6.349999999999999645 ) ) ;
#101 = EDGE_CURVE ( 'NONE', #278, #154, #193, .T. ) ;
#102 = CARTESIAN_POINT ( 'NONE',  ( 6.349999999999999645, -6.350000000000000533, 6.349999999999999645 ) ) ;
#103 = EDGE_CURVE ( 'NONE', #176, #48, #146, .T. ) ;
#104 = AXIS2_PLACEMENT_3D ( 'NONE', #23, #25, #268 ) ;
#105 = DIRECTION ( 'NONE',  ( -2.220446049250312588E-16, 1.000000000000000000, 0.000000000000000000 ) ) ;
#106 = EDGE_LOOP ( 'NONE', ( #70, #261, #284, #83 ) ) ;
#107 = LOCAL_TIME ( 10, 9, 17.00000000000000000, #163 ) ;
#108 = ORIENTED_EDGE ( 'NONE', *, *, #101, .T. ) ;
#109 = APPROVAL_STATUS ( 'not_yet_approved' ) ;
#110 = LINE ( 'NONE', #211, #259 ) ;
#111 = EDGE_LOOP ( 'NONE', ( #13, #156, #282, #217 ) ) ;
#112 = PERSON_AND_ORGANIZATION_ROLE ( 'design_supplier' ) ;
#113 = LOCAL_TIME ( 10, 9, 17.00000000000000000, #169 ) ;
#114 = ORIENTED_EDGE ( 'NONE', *, *, #126, .T. ) ;
#115 = ADVANCED_FACE ( 'NONE', ( #63 ), #45, .F. ) ;
#116 = CARTESIAN_POINT ( 'NONE',  ( -6.349999999999999645, -6.350000000000000533, 6.349999999999999645 ) ) ;
#117 = FACE_OUTER_BOUND ( 'NONE', #190, .T. ) ;
#118 = EDGE_CURVE ( 'NONE', #53, #176, #172, .T. ) ;
#119 = APPLICATION_CONTEXT ( 'configuration controlled 3d designs of mechanical parts and assemblies' ) ;
#120 = LINE ( 'NONE', #223, #205 ) ;
#121 = VECTOR ( 'NONE', #47, 1000.000000000000000 ) ;
#122 = DIRECTION ( 'NONE',  ( 0.7071067811865475727, 0.7071067811865475727, 0.000000000000000000 ) ) ;
#123 = CARTESIAN_POINT ( 'NONE',  ( -6.349999999999998757, -6.349999999999997868, 6.349999999999999645 ) ) ;
#124 = LOCAL_TIME ( 10, 9, 17.00000000000000000, #133 ) ;
#125 = ADVANCED_FACE ( 'NONE', ( #41 ), #43, .F. ) ;
#126 = EDGE_CURVE ( 'NONE', #154, #140, #120, .T. ) ;
#127 = CARTESIAN_POINT ( 'NONE',  ( -6.349999999999998757, -6.349999999999997868, -6.349999999999999645 ) ) ;
#128 = EDGE_LOOP ( 'NONE', ( #33, #228, #54, #31 ) ) ;
#129 = CARTESIAN_POINT ( 'NONE',  ( 6.349999999999998757, 6.349999999999998757, 6.349999999999999645 ) ) ;
#130 = DIRECTION ( 'NONE',  ( 6.829619984160658046E-17, -1.000000000000000000, 0.000000000000000000 ) ) ;
#131 = CARTESIAN_POINT ( 'NONE',  ( -6.349999999999998757, -6.349999999999997868, -6.349999999999999645 ) ) ;
#132 = ORIENTED_EDGE ( 'NONE', *, *, #266, .F. ) ;
#133 = COORDINATED_UNIVERSAL_TIME_OFFSET ( 8, 0, .AHEAD. ) ;
#134 = SHAPE_DEFINITION_REPRESENTATION ( #262, #78 ) ;
#135 = APPROVAL_STATUS ( 'not_yet_approved' ) ;
#136 = VECTOR ( 'NONE', #105, 1000.000000000000000 ) ;
#137 = ORIENTED_EDGE ( 'NONE', *, *, #269, .F. ) ;
#138 = CALENDAR_DATE ( 2020, 22, 12 ) ;
#139 = VECTOR ( 'NONE', #5, 999.9999999999998863 ) ;
#140 = VERTEX_POINT ( 'NONE', #141 ) ;
#141 = CARTESIAN_POINT ( 'NONE',  ( 6.349999999999999645, -6.350000000000000533, 6.349999999999999645 ) ) ;
#142 = AXIS2_PLACEMENT_3D ( 'NONE', #320, #21, #122 ) ;
#143 = DIRECTION ( 'NONE',  ( 0.000000000000000000, 0.000000000000000000, 1.000000000000000000 ) ) ;
#144 = CC_DESIGN_APPROVAL ( #263, ( #158 ) ) ;
#145 = FACE_OUTER_BOUND ( 'NONE', #299, .T. ) ;
#146 = LINE ( 'NONE', #88, #290 ) ;
#147 = AXIS2_PLACEMENT_3D ( 'NONE', #174, #143, #293 ) ;
#148 = LINE ( 'NONE', #127, #136 ) ;
#149 = ADVANCED_FACE ( 'NONE', ( #222 ), #42, .F. ) ;
#150 = ORIENTED_EDGE ( 'NONE', *, *, #225, .T. ) ;
#151 = CARTESIAN_POINT ( 'NONE',  ( 6.349999999999996980, 6.349999999999996980, 6.349999999999999645 ) ) ;
#152 = ORIENTED_EDGE ( 'NONE', *, *, #303, .F. ) ;
#153 = CARTESIAN_POINT ( 'NONE',  ( -6.350000000000002309, 6.350000000000001421, -6.349999999999999645 ) ) ;
#154 = VERTEX_POINT ( 'NONE', #196 ) ;
#155 = EDGE_CURVE ( 'NONE', #67, #189, #22, .T. ) ;
#156 = ORIENTED_EDGE ( 'NONE', *, *, #118, .F. ) ;
#157 = SECURITY_CLASSIFICATION_LEVEL ( 'unclassified' ) ;
#158 = PRODUCT_DEFINITION ( 'UNKNOWN', '', #295, #46 ) ;
#159 = ORIENTED_EDGE ( 'NONE', *, *, #273, .F. ) ;
#160 = VECTOR ( 'NONE', #73, 1000.000000000000000 ) ;
#161 = COORDINATED_UNIVERSAL_TIME_OFFSET ( 8, 0, .AHEAD. ) ;
#162 = ADVANCED_FACE ( 'NONE', ( #117 ), #296, .F. ) ;
#163 = COORDINATED_UNIVERSAL_TIME_OFFSET ( 8, 0, .AHEAD. ) ;
#164 = VERTEX_POINT ( 'NONE', #131 ) ;
#165 = EDGE_CURVE ( 'NONE', #164, #176, #148, .T. ) ;
#166 = LOCAL_TIME ( 10, 9, 17.00000000000000000, #161 ) ;
#167 = VECTOR ( 'NONE', #66, 1000.000000000000000 ) ;
#168 = CARTESIAN_POINT ( 'NONE',  ( 0.000000000000000000, 0.000000000000000000, 6.349999999999999645 ) ) ;
#169 = COORDINATED_UNIVERSAL_TIME_OFFSET ( 8, 0, .AHEAD. ) ;
#170 = DIRECTION ( 'NONE',  ( 0.000000000000000000, 0.000000000000000000, 1.000000000000000000 ) ) ;
#171 = DIRECTION ( 'NONE',  ( 0.000000000000000000, 0.000000000000000000, -1.000000000000000000 ) ) ;
#172 = LINE ( 'NONE', #221, #11 ) ;
#173 = CARTESIAN_POINT ( 'NONE',  ( 6.349999999999998757, 6.349999999999998757, 6.349999999999999645 ) ) ;
#174 = CARTESIAN_POINT ( 'NONE',  ( 0.000000000000000000, 0.000000000000000000, 6.349999999999999645 ) ) ;
#175 = ADVANCED_FACE ( 'NONE', ( #204 ), #32, .F. ) ;
#176 = VERTEX_POINT ( 'NONE', #153 ) ;
#177 = CARTESIAN_POINT ( 'NONE',  ( 0.000000000000000000, 0.000000000000000000, 0.000000000000000000 ) ) ;
#178 = CARTESIAN_POINT ( 'NONE',  ( 6.349999999999999645, -6.350000000000000533, -6.349999999999999645 ) ) ;
#179 = ORIENTED_EDGE ( 'NONE', *, *, #254, .F. ) ;
#180 = MANIFOLD_SOLID_BREP ( 'Í¹Ì¨-À', #182 ) ;
#181 =( NAMED_UNIT ( * ) PLANE_ANGLE_UNIT ( ) SI_UNIT ( $, .RADIAN. ) );
#182 = CLOSED_SHELL ( 'NONE', ( #277, #175, #162, #26, #125 ) ) ;
#183 = ORIENTED_EDGE ( 'NONE', *, *, #155, .T. ) ;
#184 = CARTESIAN_POINT ( 'NONE',  ( -6.349999999999998757, -6.349999999999997868, 6.349999999999999645 ) ) ;
#185 = VECTOR ( 'NONE', #93, 1000.000000000000000 ) ;
#186 = APPROVAL_STATUS ( 'not_yet_approved' ) ;
#187 = VERTEX_POINT ( 'NONE', #178 ) ;
#188 = PERSON_AND_ORGANIZATION ( #272, #99 ) ;
#189 = VERTEX_POINT ( 'NONE', #100 ) ;
#190 = EDGE_LOOP ( 'NONE', ( #251, #132, #233, #150 ) ) ;
#191 = APPROVAL_ROLE ( '' ) ;
#192 = CARTESIAN_POINT ( 'NONE',  ( 6.349999999999996980, 6.349999999999996980, 6.349999999999999645 ) ) ;
#193 = LINE ( 'NONE', #291, #249 ) ;
#194 = CARTESIAN_POINT ( 'NONE',  ( 6.349999999999996980, 6.349999999999996980, -6.349999999999999645 ) ) ;
#195 = AXIS2_PLACEMENT_3D ( 'NONE', #264, #170, #64 ) ;
#196 = CARTESIAN_POINT ( 'NONE',  ( -6.349999999999999645, -6.350000000000000533, 6.349999999999999645 ) ) ;
#197 = DIRECTION ( 'NONE',  ( -0.7071067811865474617, -0.7071067811865474617, 0.000000000000000000 ) ) ;
#198 = APPROVAL ( #109, 'UNSPECIFIED' ) ;
#199 = PLANE ( 'NONE',  #2 ) ;
#200 = EDGE_LOOP ( 'NONE', ( #312, #37, #236 ) ) ;
#201 = CARTESIAN_POINT ( 'NONE',  ( 6.349999999999998757, 6.349999999999998757, 6.349999999999999645 ) ) ;
#202 =( GEOMETRIC_REPRESENTATION_CONTEXT ( 3 ) GLOBAL_UNCERTAINTY_ASSIGNED_CONTEXT ( ( #214 ) ) GLOBAL_UNIT_ASSIGNED_CONTEXT ( ( #229, #181, #30 ) ) REPRESENTATION_CONTEXT ( 'NONE', 'WORKASPACE' ) );
#203 = CARTESIAN_POINT ( 'NONE',  ( -6.349999999999999645, -6.350000000000000533, -6.349999999999999645 ) ) ;
#204 = FACE_OUTER_BOUND ( 'NONE', #106, .T. ) ;
#205 = VECTOR ( 'NONE', #40, 1000.000000000000000 ) ;
#206 = LINE ( 'NONE', #304, #139 ) ;
#207 = ORIENTED_EDGE ( 'NONE', *, *, #165, .F. ) ;
#208 = PRODUCT_RELATED_PRODUCT_CATEGORY ( 'detail', '', ( #307 ) ) ;
#209 = PLANE ( 'NONE',  #306 ) ;
#210 = PERSON_AND_ORGANIZATION ( #272, #99 ) ;
#211 = CARTESIAN_POINT ( 'NONE',  ( 6.349999999999998757, 6.349999999999998757, -6.349999999999999645 ) ) ;
#212 = AXIS2_PLACEMENT_3D ( 'NONE', #192, #245, #226 ) ;
#213 = EDGE_CURVE ( 'NONE', #81, #48, #227, .T. ) ;
#214 = UNCERTAINTY_MEASURE_WITH_UNIT (LENGTH_MEASURE( 1.000000000000000082E-05 ), #229, 'distance_accuracy_value', 'NONE');
#215 = VECTOR ( 'NONE', #276, 1000.000000000000000 ) ;
#216 = CALENDAR_DATE ( 2020, 22, 12 ) ;
#217 = ORIENTED_EDGE ( 'NONE', *, *, #213, .T. ) ;
#218 = APPROVAL_DATE_TIME ( #260, #198 ) ;
#219 = PLANE ( 'NONE',  #212 ) ;
#220 = SECURITY_CLASSIFICATION ( '', '', #157 ) ;
#221 = CARTESIAN_POINT ( 'NONE',  ( -6.350000000000002309, 6.350000000000001421, 6.349999999999999645 ) ) ;
#222 = FACE_OUTER_BOUND ( 'NONE', #128, .T. ) ;
#223 = CARTESIAN_POINT ( 'NONE',  ( -6.349999999999999645, -6.350000000000000533, 6.349999999999999645 ) ) ;
#224 = APPROVAL_PERSON_ORGANIZATION ( #188, #28, #191 ) ;
#225 = EDGE_CURVE ( 'NONE', #140, #187, #248, .T. ) ;
#226 = DIRECTION ( 'NONE',  ( -1.000000000000000000, 2.903408047666378392E-16, 0.000000000000000000 ) ) ;
#227 = LINE ( 'NONE', #7, #243 ) ;
#228 = ORIENTED_EDGE ( 'NONE', *, *, #213, .F. ) ;
#229 =( LENGTH_UNIT ( ) NAMED_UNIT ( * ) SI_UNIT ( .MILLI., .METRE. ) );
#230 = DIRECTION ( 'NONE',  ( 0.000000000000000000, -0.000000000000000000, 1.000000000000000000 ) ) ;
#231 = LOCAL_TIME ( 10, 9, 17.00000000000000000, #82 ) ;
#232 = PERSON_AND_ORGANIZATION ( #272, #99 ) ;
#233 = ORIENTED_EDGE ( 'NONE', *, *, #97, .F. ) ;
#234 = DATE_AND_TIME ( #138, #107 ) ;
#235 = DIRECTION ( 'NONE',  ( 1.000000000000000000, 0.000000000000000000, 0.000000000000000000 ) ) ;
#236 = ORIENTED_EDGE ( 'NONE', *, *, #103, .T. ) ;
#237 = APPROVAL_DATE_TIME ( #234, #263 ) ;
#238 = PERSON_AND_ORGANIZATION ( #272, #99 ) ;
#239 = FACE_OUTER_BOUND ( 'NONE', #310, .T. ) ;
#240 = DIRECTION ( 'NONE',  ( -0.000000000000000000, -0.000000000000000000, -1.000000000000000000 ) ) ;
#241 = LINE ( 'NONE', #194, #16 ) ;
#242 = LINE ( 'NONE', #116, #321 ) ;
#243 = VECTOR ( 'NONE', #302, 1000.000000000000000 ) ;
#244 = CC_DESIGN_PERSON_AND_ORGANIZATION_ASSIGNMENT ( #258, #112, ( #295 ) ) ;
#245 = DIRECTION ( 'NONE',  ( -2.903408047666378392E-16, -1.000000000000000000, 0.000000000000000000 ) ) ;
#246 = APPROVAL_PERSON_ORGANIZATION ( #20, #198, #55 ) ;
#247 = CARTESIAN_POINT ( 'NONE',  ( -6.349999999999999645, -6.350000000000000533, 6.349999999999999645 ) ) ;
#248 = LINE ( 'NONE', #102, #29 ) ;
#249 = VECTOR ( 'NONE', #197, 1000.000000000000114 ) ;
#250 = CC_DESIGN_PERSON_AND_ORGANIZATION_ASSIGNMENT ( #238, #256, ( #295 ) ) ;
#251 = ORIENTED_EDGE ( 'NONE', *, *, #50, .T. ) ;
#252 = LINE ( 'NONE', #129, #121 ) ;
#253 = DATE_AND_TIME ( #216, #124 ) ;
#254 = EDGE_CURVE ( 'NONE', #74, #53, #279, .T. ) ;
#255 = PLANE ( 'NONE',  #36 ) ;
#256 = PERSON_AND_ORGANIZATION_ROLE ( 'creator' ) ;
#257 = ORIENTED_EDGE ( 'NONE', *, *, #68, .F. ) ;
#258 = PERSON_AND_ORGANIZATION ( #272, #99 ) ;
#259 = VECTOR ( 'NONE', #311, 1000.000000000000000 ) ;
#260 = DATE_AND_TIME ( #56, #231 ) ;
#261 = ORIENTED_EDGE ( 'NONE', *, *, #225, .F. ) ;
#262 = PRODUCT_DEFINITION_SHAPE ( 'NONE', 'NONE',  #158 ) ;
#263 = APPROVAL ( #186, 'UNSPECIFIED' ) ;
#264 = CARTESIAN_POINT ( 'NONE',  ( 0.000000000000000000, 0.000000000000000000, -6.349999999999999645 ) ) ;
#265 = FACE_OUTER_BOUND ( 'NONE', #111, .T. ) ;
#266 = EDGE_CURVE ( 'NONE', #278, #67, #252, .T. ) ;
#267 = AXIS2_PLACEMENT_3D ( 'NONE', #247, #9, #230 ) ;
#268 = DIRECTION ( 'NONE',  ( 1.000000000000000000, 0.000000000000000000, 0.000000000000000000 ) ) ;
#269 = EDGE_CURVE ( 'NONE', #189, #187, #298, .T. ) ;
#270 = CARTESIAN_POINT ( 'NONE',  ( 6.349999999999998757, 6.349999999999998757, -6.349999999999999645 ) ) ;
#271 = PLANE ( 'NONE',  #147 ) ;
#272 = PERSON ( 'UNSPECIFIED', 'UNSPECIFIED', 'UNSPECIFIED', ('UNSPECIFIED'), ('UNSPECIFIED'), ('UNSPECIFIED') ) ;
#273 = EDGE_CURVE ( 'NONE', #81, #74, #206, .T. ) ;
#274 = MECHANICAL_CONTEXT ( 'NONE', #8, 'mechanical' ) ;
#275 = ORIENTED_EDGE ( 'NONE', *, *, #254, .T. ) ;
#276 = DIRECTION ( 'NONE',  ( -2.220446049250312588E-16, 1.000000000000000000, 0.000000000000000000 ) ) ;
#277 = ADVANCED_FACE ( 'NONE', ( #98 ), #199, .F. ) ;
#278 = VERTEX_POINT ( 'NONE', #49 ) ;
#279 = LINE ( 'NONE', #308, #215 ) ;
#280 = DIRECTION ( 'NONE',  ( 1.000000000000000000, 0.000000000000000000, 0.000000000000000000 ) ) ;
#281 = ORIENTED_EDGE ( 'NONE', *, *, #97, .T. ) ;
#282 = ORIENTED_EDGE ( 'NONE', *, *, #303, .T. ) ;
#283 = CALENDAR_DATE ( 2020, 22, 12 ) ;
#284 = ORIENTED_EDGE ( 'NONE', *, *, #126, .F. ) ;
#285 = APPROVAL_PERSON_ORGANIZATION ( #288, #263, #79 ) ;
#286 = MANIFOLD_SOLID_BREP ( '¾µÏ', #96 ) ;
#287 = EDGE_LOOP ( 'NONE', ( #207, #27, #275, #297 ) ) ;
#288 = PERSON_AND_ORGANIZATION ( #272, #99 ) ;
#289 = DIRECTION ( 'NONE',  ( 1.000000000000000000, -2.220446049250312588E-16, 0.000000000000000000 ) ) ;
#290 = VECTOR ( 'NONE', #315, 1000.000000000000000 ) ;
#291 = CARTESIAN_POINT ( 'NONE',  ( 6.349999999999998757, 6.349999999999998757, 6.349999999999999645 ) ) ;
#292 = AXIS2_PLACEMENT_3D ( 'NONE', #177, #51, #95 ) ;
#293 = DIRECTION ( 'NONE',  ( -2.220446049250312588E-16, 1.000000000000000000, 0.000000000000000000 ) ) ;
#294 = CARTESIAN_POINT ( 'NONE',  ( 6.349999999999998757, 6.349999999999998757, -6.349999999999999645 ) ) ;
#295 = PRODUCT_DEFINITION_FORMATION_WITH_SPECIFIED_SOURCE ( 'ANY', '', #307, .NOT_KNOWN. ) ;
#296 = PLANE ( 'NONE',  #92 ) ;
#297 = ORIENTED_EDGE ( 'NONE', *, *, #118, .T. ) ;
#298 = LINE ( 'NONE', #203, #301 ) ;
#299 = EDGE_LOOP ( 'NONE', ( #159, #152, #179 ) ) ;
#300 = DIRECTION ( 'NONE',  ( 0.7071067811865474617, 0.7071067811865474617, 0.000000000000000000 ) ) ;
#301 = VECTOR ( 'NONE', #280, 1000.000000000000000 ) ;
#302 = DIRECTION ( 'NONE',  ( 0.000000000000000000, 0.000000000000000000, -1.000000000000000000 ) ) ;
#303 = EDGE_CURVE ( 'NONE', #53, #81, #71, .T. ) ;
#304 = CARTESIAN_POINT ( 'NONE',  ( 6.349999999999996980, 6.349999999999996980, 6.349999999999999645 ) ) ;
#305 = CC_DESIGN_APPROVAL ( #28, ( #295 ) ) ;
#306 = AXIS2_PLACEMENT_3D ( 'NONE', #184, #289, #58 ) ;
#307 = PRODUCT ( 'BK7-NPBSC-12.7-650-900', 'BK7-NPBSC-12.7-650-900', '', ( #274 ) ) ;
#308 = CARTESIAN_POINT ( 'NONE',  ( -6.349999999999998757, -6.349999999999997868, 6.349999999999999645 ) ) ;
#309 = PERSON_AND_ORGANIZATION_ROLE ( 'design_owner' ) ;
#310 = EDGE_LOOP ( 'NONE', ( #108, #114, #281 ) ) ;
#311 = DIRECTION ( 'NONE',  ( -6.829619984160658046E-17, 1.000000000000000000, -0.000000000000000000 ) ) ;
#312 = ORIENTED_EDGE ( 'NONE', *, *, #59, .T. ) ;
#313 = CC_DESIGN_PERSON_AND_ORGANIZATION_ASSIGNMENT ( #232, #76, ( #220 ) ) ;
#314 = FACE_OUTER_BOUND ( 'NONE', #287, .T. ) ;
#315 = DIRECTION ( 'NONE',  ( 1.000000000000000000, -2.903408047666378392E-16, 0.000000000000000000 ) ) ;
#316 = CC_DESIGN_SECURITY_CLASSIFICATION ( #220, ( #295 ) ) ;
#317 = DIRECTION ( 'NONE',  ( -1.000000000000000000, -6.829619984160658046E-17, 0.000000000000000000 ) ) ;
#318 = CC_DESIGN_DATE_AND_TIME_ASSIGNMENT ( #39, #86, ( #158 ) ) ;
#319 = LINE ( 'NONE', #24, #185 ) ;
#320 = CARTESIAN_POINT ( 'NONE',  ( 6.349999999999996980, 6.349999999999996980, 6.349999999999999645 ) ) ;
#321 = VECTOR ( 'NONE', #240, 1000.000000000000000 ) ;
ENDSEC;
END-ISO-10303-21;
